  0
SECTION
  2
HEADER
  9
$ACADVER
  1
AC1015
  9
$ACADMAINTVER
 70
     6
  9
$DWGCODEPAGE
  3
ANSI_1254
  9
$INSBASE
 10
0.0
 20
0.0
 30
0.0
  9
$EXTMIN
 10
0.0
 20
0.0
 30
0.0
  9
$EXTMAX
 10
279.4
 20
215.9
 30
0.0
  9
$LIMMIN
 10
0.0
 20
0.0
  9
$LIMMAX
 10
279.4
 20
215.9
  9
$ORTHOMODE
 70
     0
  9
$REGENMODE
 70
     1
  9
$FILLMODE
 70
     1
  9
$QTEXTMODE
 70
     0
  9
$MIRRTEXT
 70
     1
  9
$LTSCALE
 40
1.0
  9
$ATTMODE
 70
     1
  9
$TEXTSIZE
 40
3.5
  9
$TRACEWID
 40
1.0
  9
$TEXTSTYLE
  7
Standard
  9
$CLAYER
  8
0
  9
$CELTYPE
  6
ByLayer
  9
$CECOLOR
 62
   256
  9
$CELTSCALE
 40
1.0
  9
$DISPSILH
 70
     0
  9
$DIMSCALE
 40
1.0
  9
$DIMASZ
 40
3.5
  9
$DIMEXO
 40
1.0
  9
$DIMDLI
 40
3.75
  9
$DIMRND
 40
0.0
  9
$DIMDLE
 40
0.0
  9
$DIMEXE
 40
1.0
  9
$DIMTP
 40
0.0
  9
$DIMTM
 40
0.0
  9
$DIMTXT
 40
3.5
  9
$DIMCEN
 40
2.5
  9
$DIMTSZ
 40
0.0
  9
$DIMTOL
 70
     0
  9
$DIMLIM
 70
     0
  9
$DIMTIH
 70
     1
  9
$DIMTOH
 70
     1
  9
$DIMSE1
 70
     0
  9
$DIMSE2
 70
     0
  9
$DIMTAD
 70
     1
  9
$DIMZIN
 70
     0
  9
$DIMBLK
  1

  9
$DIMASO
 70
     1
  9
$DIMSHO
 70
     1
  9
$DIMPOST
  1

  9
$DIMAPOST
  1

  9
$DIMALT
 70
     0
  9
$DIMALTD
 70
     3
  9
$DIMALTF
 40
0.0393700787
  9
$DIMLFAC
 40
1.0
  9
$DIMTOFL
 70
     1
  9
$DIMTVP
 40
0.0
  9
$DIMTIX
 70
     0
  9
$DIMSOXD
 70
     0
  9
$DIMSAH
 70
     0
  9
$DIMBLK1
  1

  9
$DIMBLK2
  1

  9
$DIMSTYLE
  2
ISO-25
  9
$DIMCLRD
 70
     0
  9
$DIMCLRE
 70
     0
  9
$DIMCLRT
 70
     0
  9
$DIMTFAC
 40
1.0
  9
$DIMGAP
 40
1.524
  9
$DIMJUST
 70
     0
  9
$DIMSD1
 70
     0
  9
$DIMSD2
 70
     0
  9
$DIMTOLJ
 70
     0
  9
$DIMTZIN
 70
     0
  9
$DIMALTZ
 70
     0
  9
$DIMALTTZ
 70
     0
  9
$DIMUPT
 70
     0
  9
$DIMDEC
 70
     2
  9
$DIMTDEC
 70
     2
  9
$DIMALTU
 70
     2
  9
$DIMALTTD
 70
     3
  9
$DIMTXSTY
  7
Standard
  9
$DIMAUNIT
 70
     0
  9
$DIMADEC
 70
     2
  9
$DIMALTRND
 40
0.0
  9
$DIMAZIN
 70
     0
  9
$DIMDSEP
 70
    44
  9
$DIMATFIT
 70
     3
  9
$DIMFRAC
 70
     0
  9
$DIMLDRBLK
  1

  9
$DIMLUNIT
 70
     2
  9
$DIMLWD
 70
    -2
  9
$DIMLWE
 70
    -2
  9
$DIMTMOVE
 70
     0
  9
$LUNITS
 70
     2
  9
$LUPREC
 70
     2
  9
$SKETCHINC
 40
1.0
  9
$FILLETRAD
 40
10.0
  9
$AUNITS
 70
     0
  9
$AUPREC
 70
     2
  9
$MENU
  1
.
  9
$ELEVATION
 40
0.0
  9
$PELEVATION
 40
0.0
  9
$THICKNESS
 40
0.0
  9
$LIMCHECK
 70
     0
  9
$CHAMFERA
 40
0.0
  9
$CHAMFERB
 40
0.0
  9
$CHAMFERC
 40
0.0
  9
$CHAMFERD
 40
0.0
  9
$SKPOLY
 70
     0
  9
$TDCREATE
 40
2460704.460178576
  9
$TDUCREATE
 40
2460704.335178576
  9
$TDUPDATE
 40
2460704.460178877
  9
$TDUUPDATE
 40
2460704.335178877
  9
$TDINDWG
 40
0.0000000116
  9
$TDUSRTIMER
 40
0.0000000116
  9
$USRTIMER
 70
     1
  9
$ANGBASE
 50
0.0
  9
$ANGDIR
 70
     0
  9
$PDMODE
 70
     0
  9
$PDSIZE
 40
-1.0
  9
$PLINEWID
 40
0.0
  9
$SPLFRAME
 70
     0
  9
$SPLINETYPE
 70
     6
  9
$SPLINESEGS
 70
     8
  9
$HANDSEED
  5
B6
  9
$SURFTAB1
 70
     6
  9
$SURFTAB2
 70
     6
  9
$SURFTYPE
 70
     6
  9
$SURFU
 70
     6
  9
$SURFV
 70
     6
  9
$UCSBASE
  2

  9
$UCSNAME
  2

  9
$UCSORG
 10
0.0
 20
0.0
 30
0.0
  9
$UCSXDIR
 10
1.0
 20
0.0
 30
0.0
  9
$UCSYDIR
 10
0.0
 20
1.0
 30
0.0
  9
$UCSORTHOREF
  2

  9
$UCSORTHOVIEW
 70
     0
  9
$UCSORGTOP
 10
0.0
 20
0.0
 30
0.0
  9
$UCSORGBOTTOM
 10
0.0
 20
0.0
 30
0.0
  9
$UCSORGLEFT
 10
0.0
 20
0.0
 30
0.0
  9
$UCSORGRIGHT
 10
0.0
 20
0.0
 30
0.0
  9
$UCSORGFRONT
 10
0.0
 20
0.0
 30
0.0
  9
$UCSORGBACK
 10
0.0
 20
0.0
 30
0.0
  9
$PUCSBASE
  2

  9
$PUCSNAME
  2

  9
$PUCSORG
 10
0.0
 20
0.0
 30
0.0
  9
$PUCSXDIR
 10
1.0
 20
0.0
 30
0.0
  9
$PUCSYDIR
 10
0.0
 20
1.0
 30
0.0
  9
$PUCSORTHOREF
  2

  9
$PUCSORTHOVIEW
 70
     0
  9
$PUCSORGTOP
 10
0.0
 20
0.0
 30
0.0
  9
$PUCSORGBOTTOM
 10
0.0
 20
0.0
 30
0.0
  9
$PUCSORGLEFT
 10
0.0
 20
0.0
 30
0.0
  9
$PUCSORGRIGHT
 10
0.0
 20
0.0
 30
0.0
  9
$PUCSORGFRONT
 10
0.0
 20
0.0
 30
0.0
  9
$PUCSORGBACK
 10
0.0
 20
0.0
 30
0.0
  9
$USERI1
 70
     0
  9
$USERI2
 70
     0
  9
$USERI3
 70
     0
  9
$USERI4
 70
     0
  9
$USERI5
 70
     0
  9
$USERR1
 40
0.0
  9
$USERR2
 40
0.0
  9
$USERR3
 40
0.0
  9
$USERR4
 40
0.0
  9
$USERR5
 40
0.0
  9
$WORLDVIEW
 70
     1
  9
$SHADEDGE
 70
     3
  9
$SHADEDIF
 70
    70
  9
$TILEMODE
 70
     1
  9
$MAXACTVP
 70
    64
  9
$PINSBASE
 10
0.0
 20
0.0
 30
0.0
  9
$PLIMCHECK
 70
     0
  9
$PEXTMIN
 10
1.0000000000E+20
 20
1.0000000000E+20
 30
1.0000000000E+20
  9
$PEXTMAX
 10
-1.0000000000E+20
 20
-1.0000000000E+20
 30
-1.0000000000E+20
  9
$PLIMMIN
 10
0.0
 20
0.0
  9
$PLIMMAX
 10
420.0
 20
297.0
  9
$UNITMODE
 70
     0
  9
$VISRETAIN
 70
     1
  9
$PLINEGEN
 70
     0
  9
$PSLTSCALE
 70
     1
  9
$TREEDEPTH
 70
  3020
  9
$CMLSTYLE
  2
Standard
  9
$CMLJUST
 70
     0
  9
$CMLSCALE
 40
20.0
  9
$PROXYGRAPHICS
 70
     1
  9
$MEASUREMENT
 70
     1
  9
$CELWEIGHT
370
    -1
  9
$ENDCAPS
280
     0
  9
$JOINSTYLE
280
     0
  9
$LWDISPLAY
290
     1
  9
$INSUNITS
 70
     4
  9
$HYPERLINKBASE
  1

  9
$STYLESHEET
  1

  9
$XEDIT
290
     1
  9
$CEPSNTYPE
380
     0
  9
$PSTYLEMODE
290
     1
  9
$FINGERPRINTGUID
  2
{0058b435-0644-442a-9521-1e3f7ae9a808}
  9
$VERSIONGUID
  2
{FAEB1C32-E019-11D5-929B-00C0DF256EC4}
  9
$EXTNAMES
290
     1
  9
$PSVPSCALE
 40
0.0
  9
$OLESTARTUP
290
     0
  0
ENDSEC
  0
SECTION
  2
CLASSES
  0
CLASS
  1
ACDBDICTIONARYWDFLT
  2
AcDbDictionaryWithDefault
  3
ObjectDBX Classes
 90
        0
280
     0
281
     0
  0
CLASS
  1
VISUALSTYLE
  2
AcDbVisualStyle
  3
ObjectDBX Classes
 90
     4095
280
     0
281
     0
  0
CLASS
  1
MATERIAL
  2
AcDbMaterial
  3
ObjectDBX Classes
 90
     1153
280
     0
281
     0
  0
CLASS
  1
SCALE
  2
AcDbScale
  3
ObjectDBX Classes
 90
     1153
280
     0
281
     0
  0
CLASS
  1
TABLESTYLE
  2
AcDbTableStyle
  3
ObjectDBX Classes
 90
     4095
280
     0
281
     0
  0
CLASS
  1
MLEADERSTYLE
  2
AcDbMLeaderStyle
  3
ACDB_MLEADERSTYLE_CLASS
 90
     4095
280
     0
281
     0
  0
CLASS
  1
SUN
  2
AcDbSun
  3
SCENEOE
 90
     1153
280
     0
281
     0
  0
CLASS
  1
ACDBPLACEHOLDER
  2
AcDbPlaceHolder
  3
ObjectDBX Classes
 90
        0
280
     0
281
     0
  0
CLASS
  1
LAYOUT
  2
AcDbLayout
  3
ObjectDBX Classes
 90
        0
280
     0
281
     0
  0
ENDSEC
  0
SECTION
  2
TABLES
  0
TABLE
  2
VPORT
  5
8
330
0
100
AcDbSymbolTable
 70
     1
  0
VPORT
  5
29
330
8
100
AcDbSymbolTableRecord
100
AcDbViewportTableRecord
  2
*Active
 70
     0
 10
0.0
 20
0.0
 11
1.0
 21
1.0
 12
139.7
 22
107.95
 13
0.0
 23
0.0
 14
10.0
 24
10.0
 15
10.0
 25
10.0
 16
0.0
 26
0.0
 36
1.0
 17
0.0
 27
0.0
 37
0.0
 40
215.9
 41
1.2941176471
 42
50.0
 43
0.0
 44
0.0
 50
0.0
 51
0.0
 71
     0
 72
  2000
 73
     1
 74
     3
 75
     0
 76
     0
 77
     0
 78
     0
281
     0
 65
     1
110
0.0
120
0.0
130
0.0
111
1.0
121
0.0
131
0.0
112
0.0
122
1.0
132
0.0
 79
     0
146
0.0
  0
ENDTAB
  0
TABLE
  2
LTYPE
  5
5
330
0
100
AcDbSymbolTable
 70
     6
  0
LTYPE
  5
14
330
5
100
AcDbSymbolTableRecord
100
AcDbLinetypeTableRecord
  2
ByBlock
 70
     0
  3

 72
    65
 73
     0
 40
0.0
  0
LTYPE
  5
15
330
5
100
AcDbSymbolTableRecord
100
AcDbLinetypeTableRecord
  2
ByLayer
 70
     0
  3

 72
    65
 73
     0
 40
0.0
  0
LTYPE
  5
16
330
5
100
AcDbSymbolTableRecord
100
AcDbLinetypeTableRecord
  2
Continuous
 70
     0
  3
Solid line
 72
    65
 73
     0
 40
0.0
  0
LTYPE
  5
6E
330
5
100
AcDbSymbolTableRecord
100
AcDbLinetypeTableRecord
  2
HIDDEN
 70
     0
  3
Hidden __ __ __ __ __ __ __ __ __ __ __ __ __ __
 72
    65
 73
     2
 40
1.905
 49
1.27
 74
     0
 49
-0.635
 74
     0
  0
LTYPE
  5
6F
330
5
100
AcDbSymbolTableRecord
100
AcDbLinetypeTableRecord
  2
PHANTOM
 70
     0
  3
Phantom ______  __  __  ______  __  __  ______
 72
    65
 73
     6
 40
12.7
 49
6.35
 74
     0
 49
-1.27
 74
     0
 49
1.27
 74
     0
 49
-1.27
 74
     0
 49
1.27
 74
     0
 49
-1.27
 74
     0
  0
LTYPE
  5
70
330
5
100
AcDbSymbolTableRecord
100
AcDbLinetypeTableRecord
  2
CENTER
 70
     0
  3
Center ____ _ ____ _ ____ _ ____ _ ____ _ ____
 72
    65
 73
     4
 40
10.16
 49
6.35
 74
     0
 49
-1.27
 74
     0
 49
1.27
 74
     0
 49
-1.27
 74
     0
  0
LTYPE
  5
71
330
5
100
AcDbSymbolTableRecord
100
AcDbLinetypeTableRecord
  2
CENTERX2
 70
     0
  3
Center (2x) ________  __  ________  __  _____
 72
    65
 73
     4
 40
20.32
 49
12.7
 74
     0
 49
-2.54
 74
     0
 49
2.54
 74
     0
 49
-2.54
 74
     0
  0
LTYPE
  5
72
330
5
100
AcDbSymbolTableRecord
100
AcDbLinetypeTableRecord
  2
DOT2
 70
     0
  3
Dot (.5x) ........................................
 72
    65
 73
     2
 40
0.635
 49
0.0
 74
     0
 49
-0.635
 74
     0
  0
ENDTAB
  0
TABLE
  2
LAYER
  5
2
330
0
100
AcDbSymbolTable
 70
    17
  0
LAYER
  5
10
330
2
100
AcDbSymbolTableRecord
100
AcDbLayerTableRecord
  2
0
 70
     0
 62
     7
  6
Continuous
370
    -3
390
F
  0
LAYER
  5
73
330
2
100
AcDbSymbolTableRecord
100
AcDbLayerTableRecord
  2
FORMAT
 70
     0
 62
     7
  6
Continuous
370
    -3
390
F
  0
LAYER
  5
74
330
2
100
AcDbSymbolTableRecord
100
AcDbLayerTableRecord
  2
YARDIMCI_GEOMETRI
 70
     0
 62
    -6
  6
Continuous
290
     0
370
    -3
390
F
  0
LAYER
  5
75
330
2
100
AcDbSymbolTableRecord
100
AcDbLayerTableRecord
  2
SAYFA_CERCEVESI
 70
     0
 62
     7
  6
Continuous
370
    25
390
F
  0
LAYER
  5
76
330
2
100
AcDbSymbolTableRecord
100
AcDbLayerTableRecord
  2
ANTET
 70
     0
 62
     7
  6
Continuous
370
    -3
390
F
  0
LAYER
  5
77
330
2
100
AcDbSymbolTableRecord
100
AcDbLayerTableRecord
  2
OLCU
 70
     0
 62
   150
  6
Continuous
370
    -3
390
F
  0
LAYER
  5
78
330
2
100
AcDbSymbolTableRecord
100
AcDbLayerTableRecord
  2
METIN
 70
     0
 62
    96
  6
Continuous
370
    -3
390
F
  0
LAYER
  5
79
330
2
100
AcDbSymbolTableRecord
100
AcDbLayerTableRecord
  2
BALON
 70
     0
 62
     5
  6
Continuous
370
    -3
390
F
  0
LAYER
  5
7A
330
2
100
AcDbSymbolTableRecord
100
AcDbLayerTableRecord
  2
VURGU
 70
     0
 62
     7
  6
Continuous
370
    -3
390
F
  0
LAYER
  5
7B
330
2
100
AcDbSymbolTableRecord
100
AcDbLayerTableRecord
  2
SILIK
 70
     0
 62
     7
  6
Continuous
370
    -3
390
F
  0
LAYER
  5
7C
330
2
100
AcDbSymbolTableRecord
100
AcDbLayerTableRecord
  2
MODEL
 70
     0
 62
     7
  6
Continuous
370
    -3
390
F
  0
LAYER
  5
7D
330
2
100
AcDbSymbolTableRecord
100
AcDbLayerTableRecord
  2
DETAYLANDıRMA
 70
     0
 62
   190
  6
Continuous
370
    -3
390
F
  0
LAYER
  5
7E
330
2
100
AcDbSymbolTableRecord
100
AcDbLayerTableRecord
  2
TOLERANS
 70
     0
 62
   230
  6
Continuous
370
    -3
390
F
  0
LAYER
  5
7F
330
2
100
AcDbSymbolTableRecord
100
AcDbLayerTableRecord
  2
MERKEZ_CIZGILERI
 70
     0
 62
    30
  6
Continuous
370
    -3
390
F
  0
LAYER
  5
80
330
2
100
AcDbSymbolTableRecord
100
AcDbLayerTableRecord
  2
KESIT-DETAY_CIZGILERI
 70
     0
 62
     7
  6
Continuous
370
    -3
390
F
  0
LAYER
  5
81
330
2
100
AcDbSymbolTableRecord
100
AcDbLayerTableRecord
  2
\U+041E\U+0421\U+0415\U+0412\U+042B\U+0415
 70
     0
 62
     7
  6
Continuous
370
    -3
390
F
  0
LAYER
  5
82
330
2
100
AcDbSymbolTableRecord
100
AcDbLayerTableRecord
  2
\U+0412\U+041E\U+0414\U+042F\U+041D\U+042B\U+0415_\U+0417\U+041D\U+0410\U+041A\U+0418
 70
     0
 62
    11
  6
Continuous
370
    -3
390
F
  0
ENDTAB
  0
TABLE
  2
STYLE
  5
3
330
0
100
AcDbSymbolTable
 70
     1
  0
STYLE
  5
11
330
3
100
AcDbSymbolTableRecord
100
AcDbTextStyleTableRecord
  2
Standard
 70
     0
 40
0.0
 41
1.0
 50
0.0
 71
     0
 42
3.5
  3
txt
  4

  0
ENDTAB
  0
TABLE
  2
VIEW
  5
6
330
0
100
AcDbSymbolTable
 70
     0
  0
ENDTAB
  0
TABLE
  2
UCS
  5
7
330
0
100
AcDbSymbolTable
 70
     0
  0
ENDTAB
  0
TABLE
  2
APPID
  5
9
330
0
100
AcDbSymbolTable
 70
     1
  0
APPID
  5
12
330
9
100
AcDbSymbolTableRecord
100
AcDbRegAppTableRecord
  2
ACAD
 70
     0
  0
ENDTAB
  0
TABLE
  2
DIMSTYLE
  5
A
330
0
100
AcDbSymbolTable
 70
     1
100
AcDbDimStyleTable
  0
DIMSTYLE
105
27
330
A
100
AcDbSymbolTableRecord
100
AcDbDimStyleTableRecord
  2
ISO-25
 70
     0
 41
2.5
 42
0.625
 43
3.75
 44
1.25
 73
     0
 74
     0
 77
     1
 78
     8
140
2.5
141
2.5
143
0.0393700787
147
0.625
171
     3
172
     1
178
     0
271
     2
272
     2
274
     3
278
    44
283
     0
284
     8
340
11
  0
ENDTAB
  0
TABLE
  2
BLOCK_RECORD
  5
1
330
0
100
AcDbSymbolTable
 70
     2
  0
BLOCK_RECORD
  5
1F
330
1
100
AcDbSymbolTableRecord
100
AcDbBlockTableRecord
  2
*Model_Space
340
22
  0
BLOCK_RECORD
  5
1B
330
1
100
AcDbSymbolTableRecord
100
AcDbBlockTableRecord
  2
*Paper_Space
340
1E
  0
BLOCK_RECORD
  5
23
330
1
100
AcDbSymbolTableRecord
100
AcDbBlockTableRecord
  2
*Paper_Space0
340
26
  0
BLOCK_RECORD
  5
85
330
1
100
AcDbSymbolTableRecord
100
AcDbBlockTableRecord
  2
SW_CENTERMARKSYMBOL_0
340
0
102
{BLKREFS
331
90
102
}
  0
ENDTAB
  0
ENDSEC
  0
SECTION
  2
BLOCKS
  0
BLOCK
  5
20
330
1F
100
AcDbEntity
  8
0
100
AcDbBlockBegin
  2
*Model_Space
 70
     0
 10
0.0
 20
0.0
 30
0.0
  3
*Model_Space
  1

  0
ENDBLK
  5
21
330
1F
100
AcDbEntity
  8
0
100
AcDbBlockEnd
  0
BLOCK
  5
1C
330
1B
100
AcDbEntity
 67
     1
  8
0
100
AcDbBlockBegin
  2
*Paper_Space
 70
     0
 10
0.0
 20
0.0
 30
0.0
  3
*Paper_Space
  1

  0
ENDBLK
  5
1D
330
1B
100
AcDbEntity
 67
     1
  8
0
100
AcDbBlockEnd
  0
BLOCK
  5
24
330
23
100
AcDbEntity
  8
0
100
AcDbBlockBegin
  2
*Paper_Space0
 70
     0
 10
0.0
 20
0.0
 30
0.0
  3
*Paper_Space0
  1

  0
ENDBLK
  5
25
330
23
100
AcDbEntity
  8
0
100
AcDbBlockEnd
  0
BLOCK
  5
86
330
85
100
AcDbEntity
  8
0
100
AcDbBlockBegin
  2
SW_CENTERMARKSYMBOL_0
 70
     0
 10
0.0
 20
0.0
 30
0.0
  3
SW_CENTERMARKSYMBOL_0
  1

  0
LINE
  5
88
330
85
100
AcDbEntity
  8
FORMAT
 62
     0
100
AcDbLine
 10
0.0
 20
0.0
 30
0.0
 11
0.0
 21
2.5
 31
0.0
  0
LINE
  5
89
330
85
100
AcDbEntity
  8
FORMAT
 62
     0
100
AcDbLine
 10
0.0
 20
0.0
 30
0.0
 11
-2.5
 21
0.0
 31
0.0
  0
LINE
  5
8A
330
85
100
AcDbEntity
  8
FORMAT
 62
     0
100
AcDbLine
 10
0.0
 20
0.0
 30
0.0
 11
0.0
 21
-2.5
 31
0.0
  0
LINE
  5
8B
330
85
100
AcDbEntity
  8
FORMAT
 62
     0
100
AcDbLine
 10
0.0
 20
0.0
 30
0.0
 11
2.5
 21
0.0
 31
0.0
  0
LINE
  5
8C
330
85
100
AcDbEntity
  8
FORMAT
 62
     0
100
AcDbLine
 10
0.0
 20
5.0
 30
0.0
 11
0.0
 21
57.5
 31
0.0
  0
LINE
  5
8D
330
85
100
AcDbEntity
  8
FORMAT
 62
     0
100
AcDbLine
 10
-5.0
 20
0.0
 30
0.0
 11
-57.5
 21
0.0
 31
0.0
  0
LINE
  5
8E
330
85
100
AcDbEntity
  8
FORMAT
 62
     0
100
AcDbLine
 10
0.0
 20
-5.0
 30
0.0
 11
0.0
 21
-57.5
 31
0.0
  0
LINE
  5
8F
330
85
100
AcDbEntity
  8
FORMAT
 62
     0
100
AcDbLine
 10
5.0
 20
0.0
 30
0.0
 11
57.5
 21
0.0
 31
0.0
  0
ENDBLK
  5
87
330
85
100
AcDbEntity
  8
0
100
AcDbBlockEnd
  0
ENDSEC
  0
SECTION
  2
ENTITIES
  0
CIRCLE
  5
83
330
1F
100
AcDbEntity
  8
0
  6
Continuous
 62
     7
370
    25
100
AcDbCircle
 10
137.6017544271
 20
108.7210597844
 30
0.0
 40
55.00000000000003
  0
CIRCLE
  5
84
330
1F
100
AcDbEntity
  8
0
  6
Continuous
 62
     7
370
    25
100
AcDbCircle
 10
137.6017544271
 20
108.7210597844
 30
0.0
 40
48.40000000000003
  0
INSERT
  5
90
330
1F
100
AcDbEntity
  8
FORMAT
 62
     7
100
AcDbBlockReference
  2
SW_CENTERMARKSYMBOL_0
 10
137.6017544271
 20
108.7210597844
 30
0.0
  0
LINE
  5
91
330
1F
100
AcDbEntity
  8
0
  6
Continuous
 62
     7
370
    25
100
AcDbLine
 10
82.6017544271
 20
6.9084721294
 30
0.0
 11
82.6017544271
 21
-83.3045473516
 31
0.0
  0
LINE
  5
92
330
1F
100
AcDbEntity
  8
0
  6
Continuous
 62
     7
370
    25
100
AcDbLine
 10
192.6017544271
 20
-83.3045473516
 30
0.0
 11
192.6017544271
 21
6.9084721294
 31
0.0
  0
ARC
  5
93
330
1F
100
AcDbEntity
  8
0
  6
Continuous
 62
     7
370
    25
100
AcDbCircle
 10
136.1051435535
 20
130.0903620348
 30
0.0
 40
219.9999999999999
100
AcDbArc
 50
255.9246797746
 51
270.0
  0
ARC
  5
94
330
1F
100
AcDbEntity
  8
0
  6
Continuous
 62
     7
370
    25
100
AcDbCircle
 10
139.0983653008
 20
130.0903620348
 30
0.0
 40
219.9999999999999
100
AcDbArc
 50
270.0
 51
284.0753202254
  0
LINE
  5
95
330
1F
100
AcDbEntity
  8
0
  6
Continuous
 62
     7
370
    25
100
AcDbLine
 10
136.1051435535
 20
-89.9096379652
 30
0.0
 11
139.0983653008
 21
-89.9096379652
 31
0.0
  0
LINE
  5
96
330
1F
100
AcDbEntity
  8
0
  6
Continuous
 62
     7
370
    25
100
AcDbLine
 10
137.6017544271
 20
6.9084721294
 30
0.0
 11
192.6017544271
 21
6.9084721294
 31
0.0
  0
LINE
  5
97
330
1F
100
AcDbEntity
  8
0
  6
Continuous
 62
     7
370
    25
100
AcDbLine
 10
82.6017544271
 20
6.9084721294
 30
0.0
 11
137.6017544271
 21
6.9084721294
 31
0.0
  0
LINE
  5
98
330
1F
100
AcDbEntity
  8
0
  6
Continuous
 62
     7
370
    25
100
AcDbLine
 10
137.6017544271
 20
-83.3045473516
 30
0.0
 11
192.6017544271
 21
-83.3045473516
 31
0.0
  0
LINE
  5
99
330
1F
100
AcDbEntity
  8
0
  6
Continuous
 62
     7
370
    25
100
AcDbLine
 10
82.6017544271
 20
-83.3045473516
 30
0.0
 11
137.6017544271
 21
-83.3045473516
 31
0.0
  0
LINE
  5
9A
330
1F
100
AcDbEntity
  8
0
  6
Continuous
 62
     7
370
    25
100
AcDbLine
 10
192.6017544271
 20
205.7211594253
 30
0.0
 11
192.6017544271
 21
295.9341789062
 31
0.0
  0
LINE
  5
9B
330
1F
100
AcDbEntity
  8
0
  6
Continuous
 62
     7
370
    25
100
AcDbLine
 10
82.6017544271
 20
295.9341789062
 30
0.0
 11
82.6017544271
 21
205.7211594253
 31
0.0
  0
ARC
  5
9C
330
1F
100
AcDbEntity
  8
0
  6
Continuous
 62
     7
370
    25
100
AcDbCircle
 10
139.0983653008
 20
82.5392695199
 30
0.0
 40
219.9999999999999
100
AcDbArc
 50
75.9246797746
 51
90.0
  0
ARC
  5
9D
330
1F
100
AcDbEntity
  8
0
  6
Continuous
 62
     7
370
    25
100
AcDbCircle
 10
136.1051435535
 20
82.5392695199
 30
0.0
 40
219.9999999999999
100
AcDbArc
 50
90.0
 51
104.0753202254
  0
LINE
  5
9E
330
1F
100
AcDbEntity
  8
0
  6
Continuous
 62
     7
370
    25
100
AcDbLine
 10
139.0983653008
 20
302.5392695199
 30
0.0
 11
136.1051435535
 21
302.5392695199
 31
0.0
  0
LINE
  5
9F
330
1F
100
AcDbEntity
  8
0
  6
Continuous
 62
     7
370
    25
100
AcDbLine
 10
192.6017544271
 20
205.7211594253
 30
0.0
 11
82.6017544271
 21
205.7211594253
 31
0.0
  0
LINE
  5
A0
330
1F
100
AcDbEntity
  8
0
  6
Continuous
 62
     7
370
    25
100
AcDbLine
 10
192.6017544271
 20
295.9341789062
 30
0.0
 11
82.6017544271
 21
295.9341789062
 31
0.0
  0
LINE
  5
A1
330
1F
100
AcDbEntity
  8
0
  6
Continuous
 62
     7
370
    25
100
AcDbLine
 10
318.4126927021
 20
163.7210597844
 30
0.0
 11
228.1996732211
 21
163.7210597844
 31
0.0
  0
LINE
  5
A2
330
1F
100
AcDbEntity
  8
0
  6
Continuous
 62
     7
370
    25
100
AcDbLine
 10
228.1996732211
 20
53.7210597844
 30
0.0
 11
318.4126927021
 21
53.7210597844
 31
0.0
  0
ARC
  5
A3
330
1F
100
AcDbEntity
  8
0
  6
Continuous
 62
     7
370
    25
100
AcDbCircle
 10
441.5945826075
 20
110.2176706581
 30
0.0
 40
219.9999999999999
100
AcDbArc
 50
165.9246797746
 51
180.0
  0
ARC
  5
A4
330
1F
100
AcDbEntity
  8
0
  6
Continuous
 62
     7
370
    25
100
AcDbCircle
 10
441.5945826075
 20
107.2244489108
 30
0.0
 40
219.9999999999999
100
AcDbArc
 50
180.0
 51
194.0753202254
  0
LINE
  5
A5
330
1F
100
AcDbEntity
  8
0
  6
Continuous
 62
     7
370
    25
100
AcDbLine
 10
221.5945826075
 20
110.2176706581
 30
0.0
 11
221.5945826075
 21
107.2244489108
 31
0.0
  0
LINE
  5
A6
330
1F
100
AcDbEntity
  8
0
  6
Continuous
 62
     7
370
    25
100
AcDbLine
 10
318.4126927021
 20
163.7210597844
 30
0.0
 11
318.4126927021
 21
53.7210597844
 31
0.0
  0
LINE
  5
A7
330
1F
100
AcDbEntity
  8
0
  6
Continuous
 62
     7
370
    25
100
AcDbLine
 10
228.1996732211
 20
163.7210597844
 30
0.0
 11
228.1996732211
 21
53.7210597844
 31
0.0
  0
LINE
  5
A8
330
1F
100
AcDbEntity
  8
0
  6
Continuous
 62
     7
370
    25
100
AcDbLine
 10
-57.3515506498
 20
53.7210597844
 30
0.0
 11
32.8614688311
 21
53.7210597844
 31
0.0
  0
LINE
  5
A9
330
1F
100
AcDbEntity
  8
0
  6
Continuous
 62
     7
370
    25
100
AcDbLine
 10
32.8614688311
 20
163.7210597844
 30
0.0
 11
-57.3515506498
 21
163.7210597844
 31
0.0
  0
ARC
  5
AA
330
1F
100
AcDbEntity
  8
0
  6
Continuous
 62
     7
370
    25
100
AcDbCircle
 10
-180.5334405552
 20
107.2244489108
 30
0.0
 40
219.9999999999999
100
AcDbArc
 50
345.9246797746
 51
0.0
  0
ARC
  5
AB
330
1F
100
AcDbEntity
  8
0
  6
Continuous
 62
     7
370
    25
100
AcDbCircle
 10
-180.5334405552
 20
110.2176706581
 30
0.0
 40
219.9999999999999
100
AcDbArc
 50
0.0
 51
14.0753202254
  0
LINE
  5
AC
330
1F
100
AcDbEntity
  8
0
  6
Continuous
 62
     7
370
    25
100
AcDbLine
 10
39.4665594448
 20
107.2244489108
 30
0.0
 11
39.4665594448
 21
110.2176706581
 31
0.0
  0
LINE
  5
AD
330
1F
100
AcDbEntity
  8
0
  6
Continuous
 62
     7
370
    25
100
AcDbLine
 10
-57.3515506498
 20
53.7210597844
 30
0.0
 11
-57.3515506498
 21
163.7210597844
 31
0.0
  0
LINE
  5
AE
330
1F
100
AcDbEntity
  8
0
  6
Continuous
 62
     7
370
    25
100
AcDbLine
 10
32.8614688311
 20
53.7210597844
 30
0.0
 11
32.8614688311
 21
163.7210597844
 31
0.0
  0
LINE
  5
AF
330
1F
100
AcDbEntity
  8
0
  6
Continuous
 62
     7
370
    25
100
AcDbLine
 10
232.3580637675
 20
-74.2716707506
 30
0.0
 11
296.1483015938
 21
-111.0969911988
 31
0.0
  0
LINE
  5
B0
330
1F
100
AcDbEntity
  8
0
  6
Continuous
 62
     7
370
    25
100
AcDbLine
 10
351.1438318888
 20
-15.8316163369
 30
0.0
 11
287.3535940625
 21
20.9937041112
 31
0.0
  0
LWPOLYLINE
  5
B1
330
1F
100
AcDbEntity
  8
0
  6
Continuous
 62
     7
370
    25
100
AcDbPolyline
 90
      132
 70
   128
 43
0.0
 10
259.855828915
 20
-71.5487279734
 10
261.7204463374
 20
-70.4206603218
 10
263.5807750799
 20
-69.1918934101
 10
265.4325363269
 20
-67.8652534416
 10
267.2714709681
 20
-66.4437917307
 10
269.093349395
 20
-64.9307776848
 10
270.8939812287
 20
-63.3296912849
 10
272.6692249584
 20
-61.6442150808
 10
274.4149974666
 20
-59.878225722
 10
276.1272834205
 20
-58.0357850404
 10
277.8021445077
 20
-56.1211307088
 10
279.4357284939
 20
-54.1386664934
 10
281.0242780837
 20
-52.0929521255
 10
282.564139562
 20
-49.9886928136
 10
284.0517711981
 20
-47.8307284217
 10
285.4837513916
 20
-45.6240223369
 10
286.8567865421
 20
-43.373650054
 10
288.1677186248
 20
-41.0847875013
 10
289.413532454
 20
-38.7626991361
 10
290.5913626178
 20
-36.412725836
 10
291.6985000691
 20
-34.0402726149
 10
292.7323983564
 20
-31.6507961913
 10
293.6906794805
 20
-29.2497924374
 10
294.5711393639
 20
-26.8427837389
 10
295.3717529209
 20
-24.4353062929
 10
296.0906787146
 20
-22.0328973747
 10
296.7262631925
 20
-19.6410826018
 10
297.2770444901
 20
-17.2653632248
 10
297.7417557926
 20
-14.9112034744
 10
298.1193282493
 20
-12.5840179934
 10
298.4088934314
 20
-10.2891593831
 10
298.6097853296
 20
-8.0319058918
 10
298.7215418861
 20
-5.8174492748
 10
298.7439060574
 20
-3.6508828534
 10
298.676826405
 20
-1.5371897997
 10
298.5204572144
 20
0.5187683245
 10
298.2751581397
 20
2.5122627496
 10
297.9414933766
 20
4.4387083746
 10
297.5202303647
 20
6.2936743128
 10
297.0123380226
 20
8.0728940832
 10
296.4189845188
 20
9.7722754231
 10
295.7415345854
 20
11.3879097011
 10
294.981546379
 20
12.9160809066
 10
294.1407678969
 20
14.3532741968
 10
293.2211329564
 20
15.6961839811
 10
292.2247567474
 20
16.9417215239
 10
291.1539309671
 20
18.0870220491
 10
290.0111185491
 20
19.1294513286
 10
288.7989479986
 20
20.0666117418
 10
287.5202073468
 20
20.8963477896
 10
286.177837738
 20
21.6167510526
 10
284.7749266654
 20
22.2261645801
 10
283.3147008695
 20
22.7231867016
 10
281.8005189163
 20
23.1066742502
 10
280.2358634729
 20
23.3757451923
 10
278.6243332969
 20
23.529780656
 10
276.9696349594
 20
23.5684263549
 10
275.2755743196
 20
23.4915934027
 10
273.5460477712
 20
23.2994585175
 10
271.7850332808
 20
22.9924636158
 10
269.996581238
 20
22.5713147957
 10
268.1848051399
 20
22.036980713
 10
266.3538721296
 20
21.3906903531
 10
264.5079934116
 20
20.6339302047
 10
262.6514145663
 20
19.7684408403
 10
260.7884057843
 20
18.7962129131
 10
258.9232520457
 20
17.7194825787
 10
257.0602432637
 20
16.5407263512
 10
255.2036644184
 20
15.2626554077
 10
253.3577857004
 20
13.8882093524
 10
251.5268526901
 20
12.4205494552
 10
249.715076592
 20
10.863051381
 10
247.9266245493
 20
9.2192974252
 10
246.1656100588
 20
7.4930682746
 10
244.4360835104
 20
5.6883343116
 10
242.7420228706
 20
3.809246482
 10
241.0873245331
 20
1.8601267482
 10
239.4757943571
 20
-0.154541852
 10
237.9111389137
 20
-2.2301255164
 10
236.3969569605
 20
-4.3618503358
 10
234.9367311646
 20
-6.544813275
 10
233.533820092
 20
-8.7739934493
 10
232.1914504832
 20
-11.0442636727
 10
230.9127098314
 20
-13.350402251
 10
229.7005392809
 20
-15.6871049917
 10
228.5577268629
 20
-18.0489974035
 10
227.4869010826
 20
-20.4306470581
 10
226.4905248736
 20
-22.8265760851
 10
225.5708899331
 20
-25.2312737709
 10
224.730111451
 20
-27.6392092338
 10
223.9701232446
 20
-30.044844145
 10
223.2926733112
 20
-32.4426454672
 10
222.6993198074
 20
-34.8270981804
 10
222.1914274653
 20
-37.1927179671
 10
221.7701644534
 20
-39.5340638259
 10
221.4364996903
 20
-41.8457505863
 10
221.1912006156
 20
-44.1224612947
 10
221.034831425
 20
-46.3589594435
 10
220.9677517726
 20
-48.5501010152
 10
220.9901159439
 20
-50.6908463141
 10
221.1018725005
 20
-52.7762715574
 10
221.3027643987
 20
-54.8015802002
 10
221.5923295807
 20
-56.7621139676
 10
221.9699020374
 20
-58.6533635692
 10
222.4346133399
 20
-60.4709790704
 10
222.9853946375
 20
-62.2107798971
 10
223.6209791155
 20
-63.8687644518
 10
224.3399049091
 20
-65.4411193169
 10
225.1405184661
 20
-66.9242280257
 10
226.0209783496
 20
-68.3146793808
 10
226.9792594736
 20
-69.6092752994
 10
228.0131577609
 20
-70.8050381694
 10
229.1202952122
 20
-71.899217698
 10
230.298125376
 20
-72.8892972371
 10
231.5439392052
 20
-73.7729995721
 10
232.8548712879
 20
-74.5482921593
 10
234.2279064384
 20
-75.2133918009
 10
235.6598866319
 20
-75.7667687464
 10
237.147518268
 20
-76.207150211
 10
238.6873797463
 20
-76.5335233034
 10
240.2759293361
 20
-76.745137355
 10
241.9095133223
 20
-76.8415056466
 10
243.5843744095
 20
-76.822406528
 10
245.2966603634
 20
-76.687883928
 10
247.0424328716
 20
-76.4382472527
 10
248.8176766013
 20
-76.0740706745
 10
250.6183084351
 20
-75.5961918113
 10
252.4401868619
 20
-75.0057097996
 10
254.2791215031
 20
-74.3039827671
 10
256.1308827501
 20
-73.4926247085
 10
257.9912114927
 20
-72.5735017732
 10
259.855828915
 20
-71.5487279734
  0
LWPOLYLINE
  5
B2
330
1F
100
AcDbEntity
  8
0
  6
Continuous
 62
     7
370
    25
100
AcDbPolyline
 90
       51
 70
   128
 43
0.0
 10
323.6460667413
 20
-108.3740484216
 10
325.5106841637
 20
-107.24598077
 10
327.3710129062
 20
-106.0172138583
 10
329.2227741532
 20
-104.6905738897
 10
331.0617087944
 20
-103.2691121788
 10
332.8835872213
 20
-101.756098133
 10
334.684219055
 20
-100.155011733
 10
336.4594627847
 20
-98.469535529
 10
338.2052352929
 20
-96.7035461701
 10
339.9175212469
 20
-94.8611054886
 10
341.592382334
 20
-92.9464511569
 10
343.2259663202
 20
-90.9639869416
 10
344.81451591
 20
-88.9182725736
 10
346.3543773883
 20
-86.8140132618
 10
347.8420090244
 20
-84.6560488698
 10
349.2739892179
 20
-82.449342785
 10
350.6470243684
 20
-80.1989705021
 10
351.9579564511
 20
-77.9101079494
 10
353.2037702803
 20
-75.5880195842
 10
354.3816004441
 20
-73.2380462841
 10
355.4887378954
 20
-70.8655930631
 10
356.5226361827
 20
-68.4761166394
 10
357.4809173068
 20
-66.0751128856
 10
358.3613771902
 20
-63.6681041871
 10
359.1619907472
 20
-61.2606267411
 10
359.8809165409
 20
-58.8582178229
 10
360.5165010188
 20
-56.46640305
 10
361.0672823164
 20
-54.0906836729
 10
361.5319936189
 20
-51.7365239225
 10
361.9095660756
 20
-49.4093384415
 10
362.1991312577
 20
-47.1144798312
 10
362.4000231559
 20
-44.8572263399
 10
362.5117797124
 20
-42.6427697229
 10
362.5341438837
 20
-40.4762033015
 10
362.4670642313
 20
-38.3625102478
 10
362.3106950407
 20
-36.3065521236
 10
362.065395966
 20
-34.3130576985
 10
361.7317312029
 20
-32.3866120735
 10
361.310468191
 20
-30.5316461353
 10
360.8025758489
 20
-28.752426365
 10
360.2092223451
 20
-27.053045025
 10
359.5317724117
 20
-25.437410747
 10
358.7717842053
 20
-23.9092395416
 10
357.9310057232
 20
-22.4720462514
 10
357.0113707827
 20
-21.1291364671
 10
356.0149945737
 20
-19.8835989242
 10
354.9441687934
 20
-18.7382983991
 10
353.8013563754
 20
-17.6958691196
 10
352.5891858249
 20
-16.7587087064
 10
351.3104451731
 20
-15.9289726586
 10
351.1438318888
 20
-15.8316163369
  0
LWPOLYLINE
  5
B3
330
1F
100
AcDbEntity
  8
0
  6
Continuous
 62
     7
370
    25
100
AcDbPolyline
 90
       18
 70
   128
 43
0.0
 10
296.1483015938
 20
-111.0969911988
 10
296.6451091142
 20
-111.3736126074
 10
298.0181442647
 20
-112.038712249
 10
299.4501244582
 20
-112.5920891945
 10
300.9377560943
 20
-113.0324706592
 10
302.4776175726
 20
-113.3588437516
 10
304.0661671624
 20
-113.5704578031
 10
305.6997511486
 20
-113.6668260947
 10
307.3746122358
 20
-113.6477269762
 10
309.0868981897
 20
-113.5132043761
 10
310.8326706979
 20
-113.2635677008
 10
312.6079144276
 20
-112.8993911227
 10
314.4085462614
 20
-112.4215122594
 10
316.2304246882
 20
-111.8310302477
 10
318.0693593295
 20
-111.1293032153
 10
319.9211205764
 20
-110.3179451566
 10
321.781449319
 20
-109.3988222213
 10
323.6460667413
 20
-108.3740484216
  0
LWPOLYLINE
  5
B4
330
1F
100
AcDbEntity
  8
0
  6
Continuous
 62
     7
370
    25
100
AcDbPolyline
 90
      124
 70
   128
 43
0.0
 10
259.855828915
 20
-66.159558615
 10
261.6033250577
 20
-65.0991982306
 10
263.3462621824
 20
-63.9384995369
 10
265.0800931653
 20
-62.6804906642
 10
266.8002946393
 20
-61.3284536139
 10
268.5023787951
 20
-59.8859156965
 10
270.1819050895
 20
-58.3566403286
 10
271.8344918301
 20
-56.744617215
 10
273.455827607
 20
-55.05405194
 10
275.0416825401
 20
-53.2893549953
 10
276.5879193149
 20
-51.4551302739
 10
278.0905039764
 20
-49.5561630585
 10
279.5455164526
 20
-47.5974075378
 10
280.9491607822
 20
-45.5839738814
 10
282.2977750174
 20
-43.5211149076
 10
283.5878407775
 20
-41.4142123802
 10
284.8159924284
 20
-39.2687629671
 10
285.9790258626
 20
-37.090363901
 10
287.0739068587
 20
-34.8846983763
 10
288.0977789971
 20
-32.6575207224
 10
289.0479711124
 20
-30.4146413917
 10
289.9220042618
 20
-28.1619118002
 10
290.7175981926
 20
-25.9052090621
 10
291.4326772912
 20
-23.6504206573
 10
292.0653759977
 20
-21.4034290712
 10
292.6140436735
 20
-19.1700964484
 10
293.0772489073
 20
-16.9562492987
 10
293.4537832495
 20
-14.7676632965
 10
293.742664365
 20
-12.6100482127
 10
293.943138596
 20
-10.4890330189
 10
294.054682928
 20
-8.4101512014
 10
294.0770063547
 20
-6.3788263255
 10
294.0100506368
 20
-4.400357886
 10
293.8539904541
 20
-2.4799074811
 10
293.6092329498
 20
-0.6224853466
 10
293.2764166683
 20
1.1670627152
 10
292.8564098892
 20
2.8840679778
 10
292.3503083624
 20
4.5240509705
 10
291.7594324488
 20
6.0827331648
 10
291.0853236763
 20
7.5560481369
 10
290.3297407177
 20
8.9401521763
 10
289.4946548027
 20
10.2314343135
 10
288.582244575
 20
11.426525741
 10
287.5948904089
 20
12.5223086016
 10
286.5351681985
 20
13.5159241229
 10
285.4058426381
 20
14.4047800755
 10
284.2098600092
 20
15.1865575358
 10
282.9503404938
 20
15.8592169355
 10
281.6305700347
 20
16.4210033832
 10
280.2539917621
 20
16.870451242
 10
278.8241970118
 20
17.206387954
 10
277.3449159548
 20
17.4279370984
 10
275.8200078667
 20
17.534520679
 10
274.2534510584
 20
17.5258606314
 10
272.6493324978
 20
17.4019795485
 10
271.0118371472
 20
17.1632006221
 10
269.3452370448
 20
16.810146799
 10
267.6538801601
 20
16.3437391563
 10
265.9421790501
 20
15.7651944985
 10
264.2145993475
 20
15.0760221823
 10
262.4756481105
 20
14.2780201798
 10
260.7298620644
 20
13.373270387
 10
258.9817957656
 20
12.3641331927
 10
257.2360097195
 20
11.2532413209
 10
255.4970584825
 20
10.0434929614
 10
253.7694787799
 20
8.7380442096
 10
252.0577776699
 20
7.3403008323
 10
250.3664207852
 20
5.8539093824
 10
248.6998206828
 20
4.2827476854
 10
247.0623253322
 20
2.6309147227
 10
245.4582067716
 20
0.9027199381
 10
243.8916499633
 20
-0.8973280056
 10
242.3667418752
 20
-2.7645329889
 10
240.8874608182
 20
-4.6940236872
 10
239.4576660679
 20
-6.6807662795
 10
238.0810877953
 20
-8.7195775813
 10
236.7613173362
 20
-10.8051385666
 10
235.5017978208
 20
-12.932008245
 10
234.3058151919
 20
-15.0946378564
 10
233.1764896315
 20
-17.2873853469
 10
232.1167674211
 20
-19.5045300888
 10
231.129413255
 20
-21.7402878046
 10
230.2170030273
 20
-23.9888256577
 10
229.3819171123
 20
-26.2442774695
 10
228.6263341537
 20
-28.5007590238
 10
227.9522253812
 20
-30.7523834178
 10
227.3613494677
 20
-32.9932764207
 10
226.8552479408
 20
-35.2175917984
 10
226.4352411617
 20
-37.419526566
 10
226.1024248802
 20
-39.5933361273
 10
225.8576673759
 20
-41.7333492612
 10
225.7016071932
 20
-43.8339829177
 10
225.6346514753
 20
-45.8897567837
 10
225.656974902
 20
-47.8953075796
 10
225.768519234
 20
-49.8454030527
 10
225.968993465
 20
-51.7349556262
 10
226.2578745805
 20
-53.5590356735
 10
226.6344089227
 20
-55.3128843779
 10
227.0976141565
 20
-56.9919261483
 10
227.6462818323
 20
-58.5917805566
 10
228.2789805389
 20
-60.1082737652
 10
228.9940596374
 20
-61.5374494165
 10
229.7896535682
 20
-62.8755789544
 10
230.6636867176
 20
-64.1191713517
 10
231.6138788329
 20
-65.2649822179
 10
232.6377509714
 20
-66.3100222632
 10
233.7326319674
 20
-67.2515650975
 10
234.8956654016
 20
-68.087154343
 10
236.1238170525
 20
-68.8146100428
 10
237.4138828127
 20
-69.432034348
 10
238.7624970478
 20
-69.9378164691
 10
240.1661413774
 20
-70.3306368784
 10
241.6211538536
 20
-70.6094707521
 10
243.1237385151
 20
-70.7735906446
 10
244.66997529
 20
-70.8225683859
 10
246.255830223
 20
-70.7562761985
 10
247.8771659999
 20
-70.5748870312
 10
249.5297527406
 20
-70.2788741077
 10
251.209279035
 20
-69.8690096919
 10
252.9113631907
 20
-69.3463630732
 10
254.6315646647
 20
-68.7122977769
 10
256.3653956476
 20
-67.9684680072
 10
258.1083327723
 20
-67.1168143308
 10
259.855828915
 20
-66.159558615
  0
ENDSEC
  0
SECTION
  2
OBJECTS
  0
DICTIONARY
  5
C
330
0
100
AcDbDictionary
281
     1
  3
ACAD_GROUP
350
D
  3
ACAD_LAYOUT
350
1A
  3
ACAD_MLINESTYLE
350
17
  3
ACAD_PLOTSETTINGS
350
19
  3
ACAD_PLOTSTYLENAME
350
E
  3
ACAD_SCALELIST
350
47
  3
DWGPROPS
350
B5
  0
DICTIONARY
  5
D
102
{ACAD_REACTORS
330
C
102
}
330
C
100
AcDbDictionary
281
     1
  0
DICTIONARY
  5
1A
102
{ACAD_REACTORS
330
C
102
}
330
C
100
AcDbDictionary
281
     1
  3
Layout1
350
1E
  3
Layout2
350
26
  3
Model
350
22
  0
DICTIONARY
  5
17
102
{ACAD_REACTORS
330
C
102
}
330
C
100
AcDbDictionary
281
     1
  3
Standard
350
18
  0
DICTIONARY
  5
19
102
{ACAD_REACTORS
330
C
102
}
330
C
100
AcDbDictionary
281
     1
  0
ACDBDICTIONARYWDFLT
  5
E
102
{ACAD_REACTORS
330
C
102
}
330
C
100
AcDbDictionary
281
     1
  3
Normal
350
F
100
AcDbDictionaryWithDefault
340
F
  0
DICTIONARY
  5
47
102
{ACAD_REACTORS
330
C
102
}
330
C
100
AcDbDictionary
281
     1
  3
A0
350
48
  3
A1
350
49
  3
A2
350
4A
  3
A3
350
4B
  3
A4
350
4C
  3
A5
350
4D
  3
A6
350
4E
  3
A7
350
4F
  3
A8
350
50
  3
A9
350
51
  3
B0
350
52
  3
B1
350
53
  3
B2
350
54
  3
B3
350
55
  3
B4
350
56
  3
B5
350
57
  3
B6
350
58
  3
B7
350
59
  3
B8
350
5A
  3
B9
350
5B
  3
C0
350
5C
  3
C1
350
5D
  3
C2
350
5E
  3
C3
350
5F
  3
C4
350
60
  3
C5
350
61
  3
C6
350
62
  3
C7
350
63
  3
C8
350
64
  3
C9
350
65
  3
D0
350
66
  3
D1
350
67
  3
D2
350
68
  0
XRECORD
  5
B5
102
{ACAD_REACTORS
330
C
102
}
330
C
100
AcDbXrecord
280
     1
  1
DWGPROPS COOKIE
  2

  3

  4

  6

  7

  8
b.kav
  9

300
=
301
=
302
=
303
=
304
=
305
=
306
=
307
=
308
=
309
=
 40
0.0
 41
2460704.335178576
 42
2460704.335178877
  1

 90
        0
  0
LAYOUT
  5
1E
102
{ACAD_REACTORS
330
1A
102
}
330
1A
100
AcDbPlotSettings
  1

  2
none_device
  4

  6

 40
0.0
 41
0.0
 42
0.0
 43
0.0
 44
0.0
 45
0.0
 46
0.0
 47
0.0
 48
0.0
 49
0.0
140
0.0
141
0.0
142
1.0
143
1.0
 70
   688
 72
     1
 73
     0
 74
     5
  7

 75
    16
147
1.0
148
0.0
149
0.0
100
AcDbLayout
  1
Layout1
 70
     1
 71
     1
 10
0.0
 20
0.0
 11
420.0
 21
297.0
 12
0.0
 22
0.0
 32
0.0
 14
1.0000000000E+20
 24
1.0000000000E+20
 34
1.0000000000E+20
 15
-1.0000000000E+20
 25
-1.0000000000E+20
 35
-1.0000000000E+20
146
0.0
 13
0.0
 23
0.0
 33
0.0
 16
1.0
 26
0.0
 36
0.0
 17
0.0
 27
1.0
 37
0.0
 76
     0
330
1B
  0
LAYOUT
  5
26
102
{ACAD_REACTORS
330
1A
102
}
330
1A
100
AcDbPlotSettings
  1

  2
none_device
  4

  6

 40
0.0
 41
0.0
 42
0.0
 43
0.0
 44
0.0
 45
0.0
 46
0.0
 47
0.0
 48
0.0
 49
0.0
140
0.0
141
0.0
142
1.0
143
1.0
 70
   688
 72
     1
 73
     0
 74
     5
  7

 75
    16
147
1.0
148
0.0
149
0.0
100
AcDbLayout
  1
Layout2
 70
     1
 71
     2
 10
0.0
 20
0.0
 11
0.0
 21
0.0
 12
0.0
 22
0.0
 32
0.0
 14
0.0
 24
0.0
 34
0.0
 15
0.0
 25
0.0
 35
0.0
146
0.0
 13
0.0
 23
0.0
 33
0.0
 16
1.0
 26
0.0
 36
0.0
 17
0.0
 27
1.0
 37
0.0
 76
     0
330
23
  0
LAYOUT
  5
22
102
{ACAD_REACTORS
330
1A
102
}
330
1A
100
AcDbPlotSettings
  1

  2
none_device
  4
Letter_(8.50_x_11.00_Inches)
  6

 40
6.35
 41
6.35
 42
6.35000508
 43
6.35000508
 44
215.9
 45
279.4
 46
0.0
 47
0.0
 48
0.0
 49
0.0
140
0.0
141
0.0
142
1.0
143
1.0
 70
  1712
 72
     1
 73
     0
 74
     0
  7

 75
     0
147
1.0
148
0.0
149
0.0
100
AcDbLayout
  1
Model
 70
     1
 71
     0
 10
0.0
 20
0.0
 11
279.4
 21
215.9
 12
0.0
 22
0.0
 32
0.0
 14
0.0
 24
0.0
 34
0.0
 15
279.4
 25
215.9
 35
0.0
146
0.0
 13
0.0
 23
0.0
 33
0.0
 16
1.0
 26
0.0
 36
0.0
 17
0.0
 27
1.0
 37
0.0
 76
     0
330
1F
331
29
  0
MLINESTYLE
  5
18
102
{ACAD_REACTORS
330
17
102
}
330
17
100
AcDbMlineStyle
  2
Standard
 70
     0
  3

 62
   256
 51
90.0
 52
90.0
 71
     2
 49
0.5
 62
   256
  6
BYLAYER
 49
-0.5
 62
   256
  6
BYLAYER
  0
ACDBPLACEHOLDER
  5
F
102
{ACAD_REACTORS
330
E
102
}
330
E
  0
SCALE
  5
48
102
{ACAD_REACTORS
330
47
102
}
330
47
100
AcDbScale
 70
     0
300
1:1
140
1.0
141
1.0
290
     1
  0
SCALE
  5
49
102
{ACAD_REACTORS
330
47
102
}
330
47
100
AcDbScale
 70
     0
300
1:2
140
1.0
141
2.0
290
     0
  0
SCALE
  5
4A
102
{ACAD_REACTORS
330
47
102
}
330
47
100
AcDbScale
 70
     0
300
1:4
140
1.0
141
4.0
290
     0
  0
SCALE
  5
4B
102
{ACAD_REACTORS
330
47
102
}
330
47
100
AcDbScale
 70
     0
300
1:5
140
1.0
141
5.0
290
     0
  0
SCALE
  5
4C
102
{ACAD_REACTORS
330
47
102
}
330
47
100
AcDbScale
 70
     0
300
1:8
140
1.0
141
8.0
290
     0
  0
SCALE
  5
4D
102
{ACAD_REACTORS
330
47
102
}
330
47
100
AcDbScale
 70
     0
300
1:10
140
1.0
141
10.0
290
     0
  0
SCALE
  5
4E
102
{ACAD_REACTORS
330
47
102
}
330
47
100
AcDbScale
 70
     0
300
1:16
140
1.0
141
16.0
290
     0
  0
SCALE
  5
4F
102
{ACAD_REACTORS
330
47
102
}
330
47
100
AcDbScale
 70
     0
300
1:20
140
1.0
141
20.0
290
     0
  0
SCALE
  5
50
102
{ACAD_REACTORS
330
47
102
}
330
47
100
AcDbScale
 70
     0
300
1:30
140
1.0
141
30.0
290
     0
  0
SCALE
  5
51
102
{ACAD_REACTORS
330
47
102
}
330
47
100
AcDbScale
 70
     0
300
1:40
140
1.0
141
40.0
290
     0
  0
SCALE
  5
52
102
{ACAD_REACTORS
330
47
102
}
330
47
100
AcDbScale
 70
     0
300
1:50
140
1.0
141
50.0
290
     0
  0
SCALE
  5
53
102
{ACAD_REACTORS
330
47
102
}
330
47
100
AcDbScale
 70
     0
300
1:100
140
1.0
141
100.0
290
     0
  0
SCALE
  5
54
102
{ACAD_REACTORS
330
47
102
}
330
47
100
AcDbScale
 70
     0
300
2:1
140
2.0
141
1.0
290
     0
  0
SCALE
  5
55
102
{ACAD_REACTORS
330
47
102
}
330
47
100
AcDbScale
 70
     0
300
4:1
140
4.0
141
1.0
290
     0
  0
SCALE
  5
56
102
{ACAD_REACTORS
330
47
102
}
330
47
100
AcDbScale
 70
     0
300
8:1
140
8.0
141
1.0
290
     0
  0
SCALE
  5
57
102
{ACAD_REACTORS
330
47
102
}
330
47
100
AcDbScale
 70
     0
300
10:1
140
10.0
141
1.0
290
     0
  0
SCALE
  5
58
102
{ACAD_REACTORS
330
47
102
}
330
47
100
AcDbScale
 70
     0
300
100:1
140
100.0
141
1.0
290
     0
  0
SCALE
  5
59
102
{ACAD_REACTORS
330
47
102
}
330
47
100
AcDbScale
 70
     0
300
1/128" = 1'-0"
140
0.0078125
141
12.0
290
     0
  0
SCALE
  5
5A
102
{ACAD_REACTORS
330
47
102
}
330
47
100
AcDbScale
 70
     0
300
1/64" = 1'-0"
140
0.015625
141
12.0
290
     0
  0
SCALE
  5
5B
102
{ACAD_REACTORS
330
47
102
}
330
47
100
AcDbScale
 70
     0
300
1/32" = 1'-0"
140
0.03125
141
12.0
290
     0
  0
SCALE
  5
5C
102
{ACAD_REACTORS
330
47
102
}
330
47
100
AcDbScale
 70
     0
300
1/16" = 1'-0"
140
0.0625
141
12.0
290
     0
  0
SCALE
  5
5D
102
{ACAD_REACTORS
330
47
102
}
330
47
100
AcDbScale
 70
     0
300
3/32" = 1'-0"
140
0.09375
141
12.0
290
     0
  0
SCALE
  5
5E
102
{ACAD_REACTORS
330
47
102
}
330
47
100
AcDbScale
 70
     0
300
1/8" = 1'-0"
140
0.125
141
12.0
290
     0
  0
SCALE
  5
5F
102
{ACAD_REACTORS
330
47
102
}
330
47
100
AcDbScale
 70
     0
300
3/16" = 1'-0"
140
0.1875
141
12.0
290
     0
  0
SCALE
  5
60
102
{ACAD_REACTORS
330
47
102
}
330
47
100
AcDbScale
 70
     0
300
1/4" = 1'-0"
140
0.25
141
12.0
290
     0
  0
SCALE
  5
61
102
{ACAD_REACTORS
330
47
102
}
330
47
100
AcDbScale
 70
     0
300
3/8" = 1'-0"
140
0.375
141
12.0
290
     0
  0
SCALE
  5
62
102
{ACAD_REACTORS
330
47
102
}
330
47
100
AcDbScale
 70
     0
300
1/2" = 1'-0"
140
0.5
141
12.0
290
     0
  0
SCALE
  5
63
102
{ACAD_REACTORS
330
47
102
}
330
47
100
AcDbScale
 70
     0
300
3/4" = 1'-0"
140
0.75
141
12.0
290
     0
  0
SCALE
  5
64
102
{ACAD_REACTORS
330
47
102
}
330
47
100
AcDbScale
 70
     0
300
1" = 1'-0"
140
1.0
141
12.0
290
     0
  0
SCALE
  5
65
102
{ACAD_REACTORS
330
47
102
}
330
47
100
AcDbScale
 70
     0
300
1-1/2" = 1'-0"
140
1.5
141
12.0
290
     0
  0
SCALE
  5
66
102
{ACAD_REACTORS
330
47
102
}
330
47
100
AcDbScale
 70
     0
300
3" = 1'-0"
140
3.0
141
12.0
290
     0
  0
SCALE
  5
67
102
{ACAD_REACTORS
330
47
102
}
330
47
100
AcDbScale
 70
     0
300
6" = 1'-0"
140
6.0
141
12.0
290
     0
  0
SCALE
  5
68
102
{ACAD_REACTORS
330
47
102
}
330
47
100
AcDbScale
 70
     0
300
1'-0" = 1'-0"
140
12.0
141
12.0
290
     0
  0
ENDSEC
  0
EOF
